ISO-10303-21;
HEADER;
FILE_DESCRIPTION (( 'STEP AP203' ),
    '1' );
FILE_NAME ('MQWP-25.4-441.6.STEP',
    '2020-12-22T09:29:44',
    ( '' ),
    ( '' ),
    'SwSTEP 2.0',
    'SolidWorks 2020',
    '' );
FILE_SCHEMA (( 'CONFIG_CONTROL_DESIGN' ));
ENDSEC;

DATA;
#1 = VECTOR ( 'NONE', #45, 1000.000000000000000 ) ;
#2 = CARTESIAN_POINT ( 'NONE',  ( 1.224646799147353454E-16, 3.000000000000000000, 0.000000000000000000 ) ) ;
#3 = EDGE_CURVE ( 'NONE', #15, #150, #19, .T. ) ;
#4 = DIRECTION ( 'NONE',  ( 0.000000000000000000, 0.000000000000000000, -1.000000000000000000 ) ) ;
#5 = LOCAL_TIME ( 17, 29, 44.00000000000000000, #60 ) ;
#6 = APPROVAL_PERSON_ORGANIZATION ( #27, #57, #43 ) ;
#7 = EDGE_CURVE ( 'NONE', #119, #150, #70, .T. ) ;
#8 = LINE ( 'NONE', #170, #24 ) ;
#9 = APPROVAL_STATUS ( 'not_yet_approved' ) ;
#10 = ADVANCED_BREP_SHAPE_REPRESENTATION ( 'MQWP-25.4-441.6', ( #52, #166 ), #141 ) ;
#11 = COORDINATED_UNIVERSAL_TIME_OFFSET ( 8, 0, .AHEAD. ) ;
#12 = AXIS2_PLACEMENT_3D ( 'NONE', #172, #144, #33 ) ;
#13 = DATE_TIME_ROLE ( 'classification_date' ) ;
#14 = CARTESIAN_POINT ( 'NONE',  ( 0.9999999999999995559, 0.000000000000000000, 0.000000000000000000 ) ) ;
#15 = VERTEX_POINT ( 'NONE', #152 ) ;
#16 = ORIENTED_EDGE ( 'NONE', *, *, #37, .T. ) ;
#17 = VERTEX_POINT ( 'NONE', #80 ) ;
#18 = DIRECTION ( 'NONE',  ( 0.000000000000000000, 0.000000000000000000, 1.000000000000000000 ) ) ;
#19 = CIRCLE ( 'NONE', #162, 3.000000000000000000 ) ;
#20 = DIRECTION ( 'NONE',  ( -1.000000000000000000, -0.000000000000000000, -0.000000000000000000 ) ) ;
#21 = CYLINDRICAL_SURFACE ( 'NONE', #22, 3.000000000000000000 ) ;
#22 = AXIS2_PLACEMENT_3D ( 'NONE', #169, #171, #154 ) ;
#23 = CARTESIAN_POINT ( 'NONE',  ( 2.449293598294706907E-16, 0.000000000000000000, 0.000000000000000000 ) ) ;
#24 = VECTOR ( 'NONE', #122, 1000.000000000000000 ) ;
#25 = APPROVAL_STATUS ( 'not_yet_approved' ) ;
#26 = COORDINATED_UNIVERSAL_TIME_OFFSET ( 8, 0, .AHEAD. ) ;
#27 = PERSON_AND_ORGANIZATION ( #32, #78 ) ;
#28 = ORIENTED_EDGE ( 'NONE', *, *, #69, .F. ) ;
#29 = LOCAL_TIME ( 17, 29, 44.00000000000000000, #129 ) ;
#30 = EDGE_LOOP ( 'NONE', ( #93, #165 ) ) ;
#31 = CLOSED_SHELL ( 'NONE', ( #110, #168, #88, #115 ) ) ;
#32 = PERSON ( 'UNSPECIFIED', 'UNSPECIFIED', 'UNSPECIFIED', ('UNSPECIFIED'), ('UNSPECIFIED'), ('UNSPECIFIED') ) ;
#33 = DIRECTION ( 'NONE',  ( 0.000000000000000000, 0.000000000000000000, 1.000000000000000000 ) ) ;
#34 = DIRECTION ( 'NONE',  ( -1.000000000000000000, -0.000000000000000000, -0.000000000000000000 ) ) ;
#35 = FACE_OUTER_BOUND ( 'NONE', #68, .T. ) ;
#36 = CARTESIAN_POINT ( 'NONE',  ( 2.449293598294706907E-16, 3.673940397442059868E-16, -3.000000000000000000 ) ) ;
#37 = EDGE_CURVE ( 'NONE', #119, #17, #148, .T. ) ;
#38 = CALENDAR_DATE ( 2020, 22, 12 ) ;
#39 = AXIS2_PLACEMENT_3D ( 'NONE', #83, #140, #126 ) ;
#40 = LOCAL_TIME ( 17, 29, 44.00000000000000000, #26 ) ;
#41 = DATE_AND_TIME ( #160, #29 ) ;
#42 = CC_DESIGN_PERSON_AND_ORGANIZATION_ASSIGNMENT ( #114, #89, ( #153 ) ) ;
#43 = APPROVAL_ROLE ( '' ) ;
#44 = SECURITY_CLASSIFICATION ( '', '', #51 ) ;
#45 = DIRECTION ( 'NONE',  ( -1.000000000000000000, -0.000000000000000000, -0.000000000000000000 ) ) ;
#46 = DIRECTION ( 'NONE',  ( 0.000000000000000000, 0.000000000000000000, 1.000000000000000000 ) ) ;
#47 = PERSON_AND_ORGANIZATION ( #32, #78 ) ;
#48 = DATE_AND_TIME ( #38, #5 ) ;
#49 = APPROVAL_DATE_TIME ( #62, #123 ) ;
#50 = APPROVAL_DATE_TIME ( #61, #57 ) ;
#51 = SECURITY_CLASSIFICATION_LEVEL ( 'unclassified' ) ;
#52 = MANIFOLD_SOLID_BREP ( 'Ðý×', #31 ) ;
#53 = CC_DESIGN_DATE_AND_TIME_ASSIGNMENT ( #117, #116, ( #153 ) ) ;
#54 = DIRECTION ( 'NONE',  ( 0.000000000000000000, 0.000000000000000000, 1.000000000000000000 ) ) ;
#55 = CARTESIAN_POINT ( 'NONE',  ( 0.9999999999999995559, 3.673940397442059868E-16, -3.000000000000000000 ) ) ;
#56 = AXIS2_PLACEMENT_3D ( 'NONE', #2, #72, #4 ) ;
#57 = APPROVAL ( #77, 'UNSPECIFIED' ) ;
#58 = FACE_OUTER_BOUND ( 'NONE', #91, .T. ) ;
#59 = CYLINDRICAL_SURFACE ( 'NONE', #12, 3.000000000000000000 ) ;
#60 = COORDINATED_UNIVERSAL_TIME_OFFSET ( 8, 0, .AHEAD. ) ;
#61 = DATE_AND_TIME ( #85, #40 ) ;
#62 = DATE_AND_TIME ( #103, #104 ) ;
#63 = PRODUCT_DEFINITION_FORMATION_WITH_SPECIFIED_SOURCE ( 'ANY', '', #143, .NOT_KNOWN. ) ;
#64 = PERSON_AND_ORGANIZATION_ROLE ( 'design_owner' ) ;
#65 = CIRCLE ( 'NONE', #109, 3.000000000000000000 ) ;
#66 = CC_DESIGN_APPROVAL ( #123, ( #44 ) ) ;
#67 = ORIENTED_EDGE ( 'NONE', *, *, #7, .F. ) ;
#68 = EDGE_LOOP ( 'NONE', ( #67, #16, #136, #118 ) ) ;
#69 = EDGE_CURVE ( 'NONE', #17, #15, #8, .T. ) ;
#70 = LINE ( 'NONE', #121, #1 ) ;
#71 = EDGE_CURVE ( 'NONE', #17, #119, #65, .T. ) ;
#72 = DIRECTION ( 'NONE',  ( 1.000000000000000000, 0.000000000000000000, 0.000000000000000000 ) ) ;
#73 = APPLICATION_PROTOCOL_DEFINITION ( 'international standard', 'config_control_design', 1994, #106 ) ;
#74 = DESIGN_CONTEXT ( 'detailed design', #164, 'design' ) ;
#75 = PERSON_AND_ORGANIZATION_ROLE ( 'creator' ) ;
#76 = CC_DESIGN_APPROVAL ( #57, ( #153 ) ) ;
#77 = APPROVAL_STATUS ( 'not_yet_approved' ) ;
#78 = ORGANIZATION ( 'UNSPECIFIED', 'UNSPECIFIED', '' ) ;
#79 = ORIENTED_EDGE ( 'NONE', *, *, #7, .T. ) ;
#80 = CARTESIAN_POINT ( 'NONE',  ( 0.9999999999999995559, 0.000000000000000000, 3.000000000000000000 ) ) ;
#81 = CARTESIAN_POINT ( 'NONE',  ( 0.000000000000000000, 0.000000000000000000, 0.000000000000000000 ) ) ;
#82 = EDGE_CURVE ( 'NONE', #150, #15, #92, .T. ) ;
#83 = CARTESIAN_POINT ( 'NONE',  ( 0.9999999999999997780, 3.000000000000000000, 0.000000000000000000 ) ) ;
#84 = PLANE ( 'NONE',  #39 ) ;
#85 = CALENDAR_DATE ( 2020, 22, 12 ) ;
#86 = PERSON_AND_ORGANIZATION_ROLE ( 'design_supplier' ) ;
#87 = MECHANICAL_CONTEXT ( 'NONE', #106, 'mechanical' ) ;
#88 = ADVANCED_FACE ( 'NONE', ( #158 ), #84, .F. ) ;
#89 = PERSON_AND_ORGANIZATION_ROLE ( 'creator' ) ;
#90 = PRODUCT_RELATED_PRODUCT_CATEGORY ( 'detail', '', ( #143 ) ) ;
#91 = EDGE_LOOP ( 'NONE', ( #105, #79, #163, #28 ) ) ;
#92 = CIRCLE ( 'NONE', #120, 3.000000000000000000 ) ;
#93 = ORIENTED_EDGE ( 'NONE', *, *, #3, .T. ) ;
#94 = APPROVAL ( #9, 'UNSPECIFIED' ) ;
#95 = DIRECTION ( 'NONE',  ( 0.000000000000000000, 0.000000000000000000, 1.000000000000000000 ) ) ;
#96 =( NAMED_UNIT ( * ) SI_UNIT ( $, .STERADIAN. ) SOLID_ANGLE_UNIT ( ) );
#97 = FACE_OUTER_BOUND ( 'NONE', #30, .T. ) ;
#98 = PERSON_AND_ORGANIZATION ( #32, #78 ) ;
#99 = APPLICATION_PROTOCOL_DEFINITION ( 'international standard', 'config_control_design', 1994, #164 ) ;
#100 = APPROVAL_PERSON_ORGANIZATION ( #147, #123, #131 ) ;
#101 = APPROVAL_PERSON_ORGANIZATION ( #98, #94, #130 ) ;
#102 = PERSON_AND_ORGANIZATION ( #32, #78 ) ;
#103 = CALENDAR_DATE ( 2020, 22, 12 ) ;
#104 = LOCAL_TIME ( 17, 29, 44.00000000000000000, #11 ) ;
#105 = ORIENTED_EDGE ( 'NONE', *, *, #71, .T. ) ;
#106 = APPLICATION_CONTEXT ( 'configuration controlled 3d designs of mechanical parts and assemblies' ) ;
#107 = EDGE_LOOP ( 'NONE', ( #151, #135 ) ) ;
#108 =( LENGTH_UNIT ( ) NAMED_UNIT ( * ) SI_UNIT ( .MILLI., .METRE. ) );
#109 = AXIS2_PLACEMENT_3D ( 'NONE', #113, #111, #54 ) ;
#110 = ADVANCED_FACE ( 'NONE', ( #58 ), #21, .T. ) ;
#111 = DIRECTION ( 'NONE',  ( -1.000000000000000000, -0.000000000000000000, -0.000000000000000000 ) ) ;
#112 = PRODUCT_DEFINITION_SHAPE ( 'NONE', 'NONE',  #153 ) ;
#113 = CARTESIAN_POINT ( 'NONE',  ( 0.9999999999999995559, 0.000000000000000000, 0.000000000000000000 ) ) ;
#114 = PERSON_AND_ORGANIZATION ( #32, #78 ) ;
#115 = ADVANCED_FACE ( 'NONE', ( #97 ), #156, .F. ) ;
#116 = DATE_TIME_ROLE ( 'creation_date' ) ;
#117 = DATE_AND_TIME ( #145, #155 ) ;
#118 = ORIENTED_EDGE ( 'NONE', *, *, #82, .F. ) ;
#119 = VERTEX_POINT ( 'NONE', #55 ) ;
#120 = AXIS2_PLACEMENT_3D ( 'NONE', #23, #20, #46 ) ;
#121 = CARTESIAN_POINT ( 'NONE',  ( 0.000000000000000000, 3.673940397442059868E-16, -3.000000000000000000 ) ) ;
#122 = DIRECTION ( 'NONE',  ( -1.000000000000000000, -0.000000000000000000, -0.000000000000000000 ) ) ;
#123 = APPROVAL ( #25, 'UNSPECIFIED' ) ;
#124 = CC_DESIGN_SECURITY_CLASSIFICATION ( #44, ( #63 ) ) ;
#125 = DIRECTION ( 'NONE',  ( 1.000000000000000000, 0.000000000000000000, 0.000000000000000000 ) ) ;
#126 = DIRECTION ( 'NONE',  ( -0.000000000000000000, 0.000000000000000000, 1.000000000000000000 ) ) ;
#127 = COORDINATED_UNIVERSAL_TIME_OFFSET ( 8, 0, .AHEAD. ) ;
#128 = UNCERTAINTY_MEASURE_WITH_UNIT (LENGTH_MEASURE( 1.000000000000000082E-05 ), #108, 'distance_accuracy_value', 'NONE');
#129 = COORDINATED_UNIVERSAL_TIME_OFFSET ( 8, 0, .AHEAD. ) ;
#130 = APPROVAL_ROLE ( '' ) ;
#131 = APPROVAL_ROLE ( '' ) ;
#132 = APPROVAL_DATE_TIME ( #48, #94 ) ;
#133 = CC_DESIGN_PERSON_AND_ORGANIZATION_ASSIGNMENT ( #47, #64, ( #143 ) ) ;
#134 = CC_DESIGN_APPROVAL ( #94, ( #63 ) ) ;
#135 = ORIENTED_EDGE ( 'NONE', *, *, #37, .F. ) ;
#136 = ORIENTED_EDGE ( 'NONE', *, *, #69, .T. ) ;
#137 = CC_DESIGN_PERSON_AND_ORGANIZATION_ASSIGNMENT ( #175, #146, ( #44 ) ) ;
#138 = DIRECTION ( 'NONE',  ( -1.000000000000000000, -0.000000000000000000, -0.000000000000000000 ) ) ;
#139 = DIRECTION ( 'NONE',  ( 0.000000000000000000, 0.000000000000000000, 1.000000000000000000 ) ) ;
#140 = DIRECTION ( 'NONE',  ( -1.000000000000000000, 0.000000000000000000, -0.000000000000000000 ) ) ;
#141 =( GEOMETRIC_REPRESENTATION_CONTEXT ( 3 ) GLOBAL_UNCERTAINTY_ASSIGNED_CONTEXT ( ( #128 ) ) GLOBAL_UNIT_ASSIGNED_CONTEXT ( ( #108, #142, #96 ) ) REPRESENTATION_CONTEXT ( 'NONE', 'WORKASPACE' ) );
#142 =( NAMED_UNIT ( * ) PLANE_ANGLE_UNIT ( ) SI_UNIT ( $, .RADIAN. ) );
#143 = PRODUCT ( 'MQWP-25.4-441.6', 'MQWP-25.4-441.6', '', ( #87 ) ) ;
#144 = DIRECTION ( 'NONE',  ( -1.000000000000000000, -0.000000000000000000, -0.000000000000000000 ) ) ;
#145 = CALENDAR_DATE ( 2020, 22, 12 ) ;
#146 = PERSON_AND_ORGANIZATION_ROLE ( 'classification_officer' ) ;
#147 = PERSON_AND_ORGANIZATION ( #32, #78 ) ;
#148 = CIRCLE ( 'NONE', #159, 3.000000000000000000 ) ;
#149 = CC_DESIGN_DATE_AND_TIME_ASSIGNMENT ( #41, #13, ( #44 ) ) ;
#150 = VERTEX_POINT ( 'NONE', #36 ) ;
#151 = ORIENTED_EDGE ( 'NONE', *, *, #71, .F. ) ;
#152 = CARTESIAN_POINT ( 'NONE',  ( 2.449293598294706907E-16, 0.000000000000000000, 3.000000000000000000 ) ) ;
#153 = PRODUCT_DEFINITION ( 'UNKNOWN', '', #63, #74 ) ;
#154 = DIRECTION ( 'NONE',  ( 0.000000000000000000, 0.000000000000000000, 1.000000000000000000 ) ) ;
#155 = LOCAL_TIME ( 17, 29, 44.00000000000000000, #127 ) ;
#156 = PLANE ( 'NONE',  #56 ) ;
#157 = CC_DESIGN_PERSON_AND_ORGANIZATION_ASSIGNMENT ( #174, #86, ( #63 ) ) ;
#158 = FACE_OUTER_BOUND ( 'NONE', #107, .T. ) ;
#159 = AXIS2_PLACEMENT_3D ( 'NONE', #14, #34, #95 ) ;
#160 = CALENDAR_DATE ( 2020, 22, 12 ) ;
#161 = SHAPE_DEFINITION_REPRESENTATION ( #112, #10 ) ;
#162 = AXIS2_PLACEMENT_3D ( 'NONE', #167, #138, #18 ) ;
#163 = ORIENTED_EDGE ( 'NONE', *, *, #3, .F. ) ;
#164 = APPLICATION_CONTEXT ( 'configuration controlled 3d designs of mechanical parts and assemblies' ) ;
#165 = ORIENTED_EDGE ( 'NONE', *, *, #82, .T. ) ;
#166 = AXIS2_PLACEMENT_3D ( 'NONE', #81, #139, #125 ) ;
#167 = CARTESIAN_POINT ( 'NONE',  ( 2.449293598294706907E-16, 0.000000000000000000, 0.000000000000000000 ) ) ;
#168 = ADVANCED_FACE ( 'NONE', ( #35 ), #59, .T. ) ;
#169 = CARTESIAN_POINT ( 'NONE',  ( 0.000000000000000000, 0.000000000000000000, 0.000000000000000000 ) ) ;
#170 = CARTESIAN_POINT ( 'NONE',  ( 0.000000000000000000, 0.000000000000000000, 3.000000000000000000 ) ) ;
#171 = DIRECTION ( 'NONE',  ( -1.000000000000000000, -0.000000000000000000, -0.000000000000000000 ) ) ;
#172 = CARTESIAN_POINT ( 'NONE',  ( 0.000000000000000000, 0.000000000000000000, 0.000000000000000000 ) ) ;
#173 = CC_DESIGN_PERSON_AND_ORGANIZATION_ASSIGNMENT ( #102, #75, ( #63 ) ) ;
#174 = PERSON_AND_ORGANIZATION ( #32, #78 ) ;
#175 = PERSON_AND_ORGANIZATION ( #32, #78 ) ;
ENDSEC;
END-ISO-10303-21;
